  0
SECTION
  2
HEADER
  9
$ACADVER
  1
AC1015
  9
$ACADMAINTVER
 70
    20
  9
$DWGCODEPAGE
  3
ANSI_1252
  9
$INSBASE
 10
0.0
 20
0.0
 30
0.0
  9
$EXTMIN
 10
-10.0
 20
-60.0
 30
0.0
  9
$EXTMAX
 10
60.0
 20
10.0
 30
0.0
  9
$LIMMIN
 10
-10.0
 20
-10.0
  9
$LIMMAX
 10
10.0
 20
10.0
  9
$ORTHOMODE
 70
     0
  9
$REGENMODE
 70
     1
  9
$FILLMODE
 70
     1
  9
$QTEXTMODE
 70
     0
  9
$MIRRTEXT
 70
     0
  9
$LTSCALE
 40
1.0
  9
$ATTMODE
 70
     1
  9
$TEXTSIZE
 40
0.2
  9
$TRACEWID
 40
0.05
  9
$TEXTSTYLE
  7
Standard
  9
$CLAYER
  8
Layer1
  9
$CELTYPE
  6
ByLayer
  9
$CECOLOR
 62
   256
  9
$CELTSCALE
 40
1.0
  9
$DISPSILH
 70
     0
  9
$DIMSCALE
 40
1.0
  9
$DIMASZ
 40
0.18
  9
$DIMEXO
 40
0.0625
  9
$DIMDLI
 40
0.38
  9
$DIMRND
 40
0.0
  9
$DIMDLE
 40
0.0
  9
$DIMEXE
 40
0.18
  9
$DIMTP
 40
0.0
  9
$DIMTM
 40
0.0
  9
$DIMTXT
 40
0.18
  9
$DIMCEN
 40
0.09
  9
$DIMTSZ
 40
0.0
  9
$DIMTOL
 70
     0
  9
$DIMLIM
 70
     0
  9
$DIMTIH
 70
     1
  9
$DIMTOH
 70
     1
  9
$DIMSE1
 70
     0
  9
$DIMSE2
 70
     0
  9
$DIMTAD
 70
     0
  9
$DIMZIN
 70
     0
  9
$DIMBLK
  1

  9
$DIMASO
 70
     1
  9
$DIMSHO
 70
     1
  9
$DIMPOST
  1

  9
$DIMAPOST
  1

  9
$DIMALT
 70
     0
  9
$DIMALTD
 70
     2
  9
$DIMALTF
 40
25.4
  9
$DIMLFAC
 40
1.0
  9
$DIMTOFL
 70
     0
  9
$DIMTVP
 40
0.0
  9
$DIMTIX
 70
     0
  9
$DIMSOXD
 70
     0
  9
$DIMSAH
 70
     0
  9
$DIMBLK1
  1

  9
$DIMBLK2
  1

  9
$DIMSTYLE
  2
Standard
  9
$DIMCLRD
 70
     0
  9
$DIMCLRE
 70
     0
  9
$DIMCLRT
 70
     0
  9
$DIMTFAC
 40
1.0
  9
$DIMGAP
 40
0.09
  9
$DIMJUST
 70
     0
  9
$DIMSD1
 70
     0
  9
$DIMSD2
 70
     0
  9
$DIMTOLJ
 70
     1
  9
$DIMTZIN
 70
     0
  9
$DIMALTZ
 70
     0
  9
$DIMALTTZ
 70
     0
  9
$DIMUPT
 70
     0
  9
$DIMDEC
 70
     4
  9
$DIMTDEC
 70
     4
  9
$DIMALTU
 70
     2
  9
$DIMALTTD
 70
     2
  9
$DIMTXSTY
  7
Standard
  9
$DIMAUNIT
 70
     0
  9
$DIMADEC
 70
     0
  9
$DIMALTRND
 40
0.0
  9
$DIMAZIN
 70
     0
  9
$DIMDSEP
 70
    46
  9
$DIMATFIT
 70
     3
  9
$DIMFRAC
 70
     0
  9
$DIMLDRBLK
  1

  9
$DIMLUNIT
 70
     2
  9
$DIMLWD
 70
    -2
  9
$DIMLWE
 70
    -2
  9
$DIMTMOVE
 70
     0
  9
$LUNITS
 70
     2
  9
$LUPREC
 70
     4
  9
$SKETCHINC
 40
0.1
  9
$FILLETRAD
 40
0.0
  9
$AUNITS
 70
     0
  9
$AUPREC
 70
     0
  9
$MENU
  1
.
  9
$ELEVATION
 40
0.0
  9
$PELEVATION
 40
0.0
  9
$THICKNESS
 40
0.0
  9
$LIMCHECK
 70
     0
  9
$CHAMFERA
 40
0.0
  9
$CHAMFERB
 40
0.0
  9
$CHAMFERC
 40
0.0
  9
$CHAMFERD
 40
0.0
  9
$SKPOLY
 70
     0
  9
$TDCREATE
 40
2454643.406187003
  9
$TDUCREATE
 40
2454643.697853669
  9
$TDUPDATE
 40
2454643.549160822
  9
$TDUUPDATE
 40
2454643.840827488
  9
$TDINDWG
 40
0.0193001389
  9
$TDUSRTIMER
 40
0.0193001389
  9
$USRTIMER
 70
     1
  9
$ANGBASE
 50
0.0
  9
$ANGDIR
 70
     0
  9
$PDMODE
 70
     0
  9
$PDSIZE
 40
0.0
  9
$PLINEWID
 40
0.25
  9
$SPLFRAME
 70
     0
  9
$SPLINETYPE
 70
     6
  9
$SPLINESEGS
 70
     8
  9
$HANDSEED
  5
1CA
  9
$SURFTAB1
 70
     6
  9
$SURFTAB2
 70
     6
  9
$SURFTYPE
 70
     6
  9
$SURFU
 70
     6
  9
$SURFV
 70
     6
  9
$UCSBASE
  2

  9
$UCSNAME
  2

  9
$UCSORG
 10
0.0
 20
0.0
 30
0.0
  9
$UCSXDIR
 10
1.0
 20
0.0
 30
0.0
  9
$UCSYDIR
 10
0.0
 20
1.0
 30
0.0
  9
$UCSORTHOREF
  2

  9
$UCSORTHOVIEW
 70
     0
  9
$UCSORGTOP
 10
0.0
 20
0.0
 30
0.0
  9
$UCSORGBOTTOM
 10
0.0
 20
0.0
 30
0.0
  9
$UCSORGLEFT
 10
0.0
 20
0.0
 30
0.0
  9
$UCSORGRIGHT
 10
0.0
 20
0.0
 30
0.0
  9
$UCSORGFRONT
 10
0.0
 20
0.0
 30
0.0
  9
$UCSORGBACK
 10
0.0
 20
0.0
 30
0.0
  9
$PUCSBASE
  2

  9
$PUCSNAME
  2

  9
$PUCSORG
 10
0.0
 20
0.0
 30
0.0
  9
$PUCSXDIR
 10
1.0
 20
0.0
 30
0.0
  9
$PUCSYDIR
 10
0.0
 20
1.0
 30
0.0
  9
$PUCSORTHOREF
  2

  9
$PUCSORTHOVIEW
 70
     0
  9
$PUCSORGTOP
 10
0.0
 20
0.0
 30
0.0
  9
$PUCSORGBOTTOM
 10
0.0
 20
0.0
 30
0.0
  9
$PUCSORGLEFT
 10
0.0
 20
0.0
 30
0.0
  9
$PUCSORGRIGHT
 10
0.0
 20
0.0
 30
0.0
  9
$PUCSORGFRONT
 10
0.0
 20
0.0
 30
0.0
  9
$PUCSORGBACK
 10
0.0
 20
0.0
 30
0.0
  9
$USERI1
 70
     0
  9
$USERI2
 70
     0
  9
$USERI3
 70
     0
  9
$USERI4
 70
     0
  9
$USERI5
 70
     0
  9
$USERR1
 40
0.0
  9
$USERR2
 40
0.0
  9
$USERR3
 40
0.0
  9
$USERR4
 40
0.0
  9
$USERR5
 40
0.0
  9
$WORLDVIEW
 70
     1
  9
$SHADEDGE
 70
     3
  9
$SHADEDIF
 70
    70
  9
$TILEMODE
 70
     1
  9
$MAXACTVP
 70
    64
  9
$PINSBASE
 10
0.0
 20
0.0
 30
0.0
  9
$PLIMCHECK
 70
     0
  9
$PEXTMIN
 10
0.0
 20
0.0
 30
0.0
  9
$PEXTMAX
 10
0.0
 20
0.0
 30
0.0
  9
$PLIMMIN
 10
0.0
 20
0.0
  9
$PLIMMAX
 10
12.0
 20
9.0
  9
$UNITMODE
 70
     0
  9
$VISRETAIN
 70
     1
  9
$PLINEGEN
 70
     0
  9
$PSLTSCALE
 70
     1
  9
$TREEDEPTH
 70
  3020
  9
$CMLSTYLE
  2
Standard
  9
$CMLJUST
 70
     0
  9
$CMLSCALE
 40
1.0
  9
$PROXYGRAPHICS
 70
     1
  9
$MEASUREMENT
 70
     0
  9
$CELWEIGHT
370
    -1
  9
$ENDCAPS
280
     0
  9
$JOINSTYLE
280
     0
  9
$LWDISPLAY
290
     0
  9
$INSUNITS
 70
     1
  9
$HYPERLINKBASE
  1

  9
$STYLESHEET
  1

  9
$XEDIT
290
     1
  9
$CEPSNTYPE
380
     0
  9
$PSTYLEMODE
290
     1
  9
$FINGERPRINTGUID
  2
{7A1DBEE8-A1E9-44E3-A418-075E1B4A6E5E}
  9
$VERSIONGUID
  2
{0733F851-2EBC-4249-8AE8-6FB8C608B2AC}
  9
$EXTNAMES
290
     1
  9
$PSVPSCALE
 40
0.0
  9
$OLESTARTUP
290
     0
  0
ENDSEC
  0
SECTION
  2
CLASSES
  0
CLASS
  1
ACDBDICTIONARYWDFLT
  2
AcDbDictionaryWithDefault
  3
ObjectDBX Classes
 90
        0
280
     0
281
     0
  0
CLASS
  1
ACDBPLACEHOLDER
  2
AcDbPlaceHolder
  3
ObjectDBX Classes
 90
        0
280
     0
281
     0
  0
CLASS
  1
LAYOUT
  2
AcDbLayout
  3
ObjectDBX Classes
 90
        0
280
     0
281
     0
  0
CLASS
  1
DICTIONARYVAR
  2
AcDbDictionaryVar
  3
ObjectDBX Classes
 90
        0
280
     0
281
     0
  0
CLASS
  1
TABLESTYLE
  2
AcDbTableStyle
  3
ObjectDBX Classes
 90
     2047
280
     0
281
     0
  0
ENDSEC
  0
SECTION
  2
TABLES
  0
TABLE
  2
VPORT
  5
8
330
0
100
AcDbSymbolTable
 70
     4
  0
VPORT
  5
1C2
330
8
100
AcDbSymbolTableRecord
100
AcDbViewportTableRecord
  2
*Active
 70
     0
 10
0.0
 20
0.0
 11
1.0
 21
1.0
 12
24.84253922994451
 22
0.372918864486893
 13
0.0
 23
0.0
 14
5.0
 24
5.0
 15
1.0
 25
1.0
 16
0.0
 26
0.0
 36
1.0
 17
0.0
 27
0.0
 37
0.0
 40
30.00907346075138
 41
2.523255813953488
 42
50.0
 43
0.0
 44
0.0
 50
0.0
 51
0.0
 71
     0
 72
  1000
 73
     1
 74
     2
 75
     1
 76
     0
 77
     0
 78
     0
281
     0
 65
     1
110
0.0
120
0.0
130
0.0
111
1.0
121
0.0
131
0.0
112
0.0
122
1.0
132
0.0
 79
     0
146
0.0
  0
ENDTAB
  0
TABLE
  2
LTYPE
  5
5
330
0
100
AcDbSymbolTable
 70
     1
  0
LTYPE
  5
14
330
5
100
AcDbSymbolTableRecord
100
AcDbLinetypeTableRecord
  2
ByBlock
 70
     0
  3

 72
    65
 73
     0
 40
0.0
  0
LTYPE
  5
15
330
5
100
AcDbSymbolTableRecord
100
AcDbLinetypeTableRecord
  2
ByLayer
 70
     0
  3

 72
    65
 73
     0
 40
0.0
  0
LTYPE
  5
16
330
5
100
AcDbSymbolTableRecord
100
AcDbLinetypeTableRecord
  2
Continuous
 70
     0
  3
Solid line
 72
    65
 73
     0
 40
0.0
  0
ENDTAB
  0
TABLE
  2
LAYER
  5
2
102
{ACAD_XDICTIONARY
360
96
102
}
330
0
100
AcDbSymbolTable
 70
     5
  0
LAYER
  5
10
330
2
100
AcDbSymbolTableRecord
100
AcDbLayerTableRecord
  2
0
 70
     0
 62
     7
  6
Continuous
370
    -3
390
F
  0
LAYER
  5
91
330
2
100
AcDbSymbolTableRecord
100
AcDbLayerTableRecord
  2
Layer1
 70
     0
 62
    14
  6
Continuous
370
    -3
390
F
1001
AcAecLayerStandard
1000

1000

  0
LAYER
  5
93
330
2
100
AcDbSymbolTableRecord
100
AcDbLayerTableRecord
  2
Layer2
 70
     0
 62
    42
  6
Continuous
370
    -3
390
F
1001
AcAecLayerStandard
1000

1000

  0
LAYER
  5
94
330
2
100
AcDbSymbolTableRecord
100
AcDbLayerTableRecord
  2
Layer3
 70
     0
 62
   120
  6
Continuous
370
    -3
390
F
1001
AcAecLayerStandard
1000

1000

  0
LAYER
  5
95
330
2
100
AcDbSymbolTableRecord
100
AcDbLayerTableRecord
  2
Layer4
 70
     0
 62
    51
  6
Continuous
370
    -3
390
F
1001
AcAecLayerStandard
1000

1000

  0
ENDTAB
  0
TABLE
  2
STYLE
  5
3
330
0
100
AcDbSymbolTable
 70
     1
  0
STYLE
  5
11
330
3
100
AcDbSymbolTableRecord
100
AcDbTextStyleTableRecord
  2
Standard
 70
     0
 40
0.0
 41
1.0
 50
0.0
 71
     0
 42
0.2
  3
txt
  4

  0
ENDTAB
  0
TABLE
  2
VIEW
  5
6
330
0
100
AcDbSymbolTable
 70
     0
  0
ENDTAB
  0
TABLE
  2
UCS
  5
7
330
0
100
AcDbSymbolTable
 70
     0
  0
ENDTAB
  0
TABLE
  2
APPID
  5
9
330
0
100
AcDbSymbolTable
 70
     2
  0
APPID
  5
12
330
9
100
AcDbSymbolTableRecord
100
AcDbRegAppTableRecord
  2
ACAD
 70
     0
  0
APPID
  5
92
330
9
100
AcDbSymbolTableRecord
100
AcDbRegAppTableRecord
  2
AcAecLayerStandard
 70
     0
  0
ENDTAB
  0
TABLE
  2
DIMSTYLE
  5
A
330
0
100
AcDbSymbolTable
 70
     1
100
AcDbDimStyleTable
 71
     0
  0
DIMSTYLE
105
27
330
A
100
AcDbSymbolTableRecord
100
AcDbDimStyleTableRecord
  2
Standard
 70
     0
340
11
  0
ENDTAB
  0
TABLE
  2
BLOCK_RECORD
  5
1
330
0
100
AcDbSymbolTable
 70
     1
  0
BLOCK_RECORD
  5
1F
330
1
100
AcDbSymbolTableRecord
100
AcDbBlockTableRecord
  2
*Model_Space
340
22
  0
BLOCK_RECORD
  5
58
330
1
100
AcDbSymbolTableRecord
100
AcDbBlockTableRecord
  2
*Paper_Space
340
59
  0
BLOCK_RECORD
  5
5D
330
1
100
AcDbSymbolTableRecord
100
AcDbBlockTableRecord
  2
*Paper_Space0
340
5E
  0
ENDTAB
  0
ENDSEC
  0
SECTION
  2
BLOCKS
  0
BLOCK
  5
20
330
1F
100
AcDbEntity
  8
0
100
AcDbBlockBegin
  2
*Model_Space
 70
     0
 10
0.0
 20
0.0
 30
0.0
  3
*Model_Space
  1

  0
ENDBLK
  5
21
330
1F
100
AcDbEntity
  8
0
100
AcDbBlockEnd
  0
BLOCK
  5
5A
330
58
100
AcDbEntity
 67
     1
  8
0
100
AcDbBlockBegin
  2
*Paper_Space
 70
     0
 10
0.0
 20
0.0
 30
0.0
  3
*Paper_Space
  1

  0
ENDBLK
  5
5B
330
58
100
AcDbEntity
 67
     1
  8
0
100
AcDbBlockEnd
  0
BLOCK
  5
5F
330
5D
100
AcDbEntity
 67
     1
  8
0
100
AcDbBlockBegin
  2
*Paper_Space0
 70
     0
 10
0.0
 20
0.0
 30
0.0
  3
*Paper_Space0
  1

  0
ENDBLK
  5
60
330
5D
100
AcDbEntity
 67
     1
  8
0
100
AcDbBlockEnd
  0
ENDSEC
  0
SECTION
  2
ENTITIES
  0
LWPOLYLINE
  5
9C
330
1F
100
AcDbEntity
  8
Layer1
100
AcDbPolyline
 90
        4
 70
     1
 43
0.0
 10
-10.0
 20
-10.0
 10
10.0
 20
-10.0
 10
10.0
 20
10.0
 10
-10.0
 20
10.0
  0
CIRCLE
  5
9D
330
1F
100
AcDbEntity
  8
Layer1
100
AcDbCircle
 10
-8.0
 20
8.0
 30
0.0
 40
0.6324555320336753
  0
CIRCLE
  5
9E
330
1F
100
AcDbEntity
  8
Layer1
100
AcDbCircle
 10
-8.0
 20
6.0
 30
0.0
 40
0.6324555320336753
  0
CIRCLE
  5
9F
330
1F
100
AcDbEntity
  8
Layer1
100
AcDbCircle
 10
-8.0
 20
4.0
 30
0.0
 40
0.6324555320336753
  0
CIRCLE
  5
A0
330
1F
100
AcDbEntity
  8
Layer1
100
AcDbCircle
 10
-8.0
 20
2.0
 30
0.0
 40
0.6324555320336753
  0
CIRCLE
  5
A1
330
1F
100
AcDbEntity
  8
Layer1
100
AcDbCircle
 10
-8.0
 20
0.0
 30
0.0
 40
0.6324555320336753
  0
CIRCLE
  5
A2
330
1F
100
AcDbEntity
  8
Layer1
100
AcDbCircle
 10
-8.0
 20
-2.0
 30
0.0
 40
0.6324555320336753
  0
CIRCLE
  5
A3
330
1F
100
AcDbEntity
  8
Layer1
100
AcDbCircle
 10
-8.0
 20
-4.0
 30
0.0
 40
0.6324555320336753
  0
CIRCLE
  5
A4
330
1F
100
AcDbEntity
  8
Layer1
100
AcDbCircle
 10
-8.0
 20
-6.0
 30
0.0
 40
0.6324555320336753
  0
CIRCLE
  5
A5
330
1F
100
AcDbEntity
  8
Layer1
100
AcDbCircle
 10
-8.0
 20
-8.0
 30
0.0
 40
0.6324555320336753
  0
CIRCLE
  5
A6
330
1F
100
AcDbEntity
  8
Layer1
100
AcDbCircle
 10
-6.0
 20
8.0
 30
0.0
 40
0.6324555320336753
  0
CIRCLE
  5
A7
330
1F
100
AcDbEntity
  8
Layer1
100
AcDbCircle
 10
-6.0
 20
6.0
 30
0.0
 40
0.6324555320336753
  0
CIRCLE
  5
A8
330
1F
100
AcDbEntity
  8
Layer1
100
AcDbCircle
 10
-6.0
 20
4.0
 30
0.0
 40
0.6324555320336753
  0
CIRCLE
  5
A9
330
1F
100
AcDbEntity
  8
Layer1
100
AcDbCircle
 10
-6.0
 20
2.0
 30
0.0
 40
0.6324555320336753
  0
CIRCLE
  5
AA
330
1F
100
AcDbEntity
  8
Layer1
100
AcDbCircle
 10
-6.0
 20
0.0
 30
0.0
 40
0.6324555320336753
  0
CIRCLE
  5
AB
330
1F
100
AcDbEntity
  8
Layer1
100
AcDbCircle
 10
-6.0
 20
-2.0
 30
0.0
 40
0.6324555320336753
  0
CIRCLE
  5
AC
330
1F
100
AcDbEntity
  8
Layer1
100
AcDbCircle
 10
-6.0
 20
-4.0
 30
0.0
 40
0.6324555320336753
  0
CIRCLE
  5
AD
330
1F
100
AcDbEntity
  8
Layer1
100
AcDbCircle
 10
-6.0
 20
-6.0
 30
0.0
 40
0.6324555320336753
  0
CIRCLE
  5
AE
330
1F
100
AcDbEntity
  8
Layer1
100
AcDbCircle
 10
-6.0
 20
-8.0
 30
0.0
 40
0.6324555320336753
  0
CIRCLE
  5
AF
330
1F
100
AcDbEntity
  8
Layer1
100
AcDbCircle
 10
-4.0
 20
8.0
 30
0.0
 40
0.6324555320336753
  0
CIRCLE
  5
B0
330
1F
100
AcDbEntity
  8
Layer1
100
AcDbCircle
 10
-4.0
 20
6.0
 30
0.0
 40
0.6324555320336753
  0
CIRCLE
  5
B1
330
1F
100
AcDbEntity
  8
Layer1
100
AcDbCircle
 10
-4.0
 20
4.0
 30
0.0
 40
0.6324555320336753
  0
CIRCLE
  5
B2
330
1F
100
AcDbEntity
  8
Layer1
100
AcDbCircle
 10
-4.0
 20
2.0
 30
0.0
 40
0.6324555320336753
  0
CIRCLE
  5
B3
330
1F
100
AcDbEntity
  8
Layer1
100
AcDbCircle
 10
-4.0
 20
0.0
 30
0.0
 40
0.6324555320336753
  0
CIRCLE
  5
B4
330
1F
100
AcDbEntity
  8
Layer1
100
AcDbCircle
 10
-4.0
 20
-2.0
 30
0.0
 40
0.6324555320336753
  0
CIRCLE
  5
B5
330
1F
100
AcDbEntity
  8
Layer1
100
AcDbCircle
 10
-4.0
 20
-4.0
 30
0.0
 40
0.6324555320336753
  0
CIRCLE
  5
B6
330
1F
100
AcDbEntity
  8
Layer1
100
AcDbCircle
 10
-4.0
 20
-6.0
 30
0.0
 40
0.6324555320336753
  0
CIRCLE
  5
B7
330
1F
100
AcDbEntity
  8
Layer1
100
AcDbCircle
 10
-4.0
 20
-8.0
 30
0.0
 40
0.6324555320336753
  0
CIRCLE
  5
B8
330
1F
100
AcDbEntity
  8
Layer1
100
AcDbCircle
 10
-2.0
 20
8.0
 30
0.0
 40
0.6324555320336753
  0
CIRCLE
  5
B9
330
1F
100
AcDbEntity
  8
Layer1
100
AcDbCircle
 10
-2.0
 20
6.0
 30
0.0
 40
0.6324555320336753
  0
CIRCLE
  5
BA
330
1F
100
AcDbEntity
  8
Layer1
100
AcDbCircle
 10
-2.0
 20
4.0
 30
0.0
 40
0.6324555320336753
  0
CIRCLE
  5
BB
330
1F
100
AcDbEntity
  8
Layer1
100
AcDbCircle
 10
-2.0
 20
2.0
 30
0.0
 40
0.6324555320336753
  0
CIRCLE
  5
BC
330
1F
100
AcDbEntity
  8
Layer1
100
AcDbCircle
 10
-2.0
 20
0.0
 30
0.0
 40
0.6324555320336753
  0
CIRCLE
  5
BD
330
1F
100
AcDbEntity
  8
Layer1
100
AcDbCircle
 10
-2.0
 20
-2.0
 30
0.0
 40
0.6324555320336753
  0
CIRCLE
  5
BE
330
1F
100
AcDbEntity
  8
Layer1
100
AcDbCircle
 10
-2.0
 20
-4.0
 30
0.0
 40
0.6324555320336753
  0
CIRCLE
  5
BF
330
1F
100
AcDbEntity
  8
Layer1
100
AcDbCircle
 10
-2.0
 20
-6.0
 30
0.0
 40
0.6324555320336753
  0
CIRCLE
  5
C0
330
1F
100
AcDbEntity
  8
Layer1
100
AcDbCircle
 10
-2.0
 20
-8.0
 30
0.0
 40
0.6324555320336753
  0
CIRCLE
  5
C1
330
1F
100
AcDbEntity
  8
Layer1
100
AcDbCircle
 10
0.0
 20
8.0
 30
0.0
 40
0.6324555320336753
  0
CIRCLE
  5
C2
330
1F
100
AcDbEntity
  8
Layer1
100
AcDbCircle
 10
0.0
 20
6.0
 30
0.0
 40
0.6324555320336753
  0
CIRCLE
  5
C3
330
1F
100
AcDbEntity
  8
Layer1
100
AcDbCircle
 10
0.0
 20
4.0
 30
0.0
 40
0.6324555320336753
  0
CIRCLE
  5
C4
330
1F
100
AcDbEntity
  8
Layer1
100
AcDbCircle
 10
0.0
 20
2.0
 30
0.0
 40
0.6324555320336753
  0
CIRCLE
  5
C5
330
1F
100
AcDbEntity
  8
Layer1
100
AcDbCircle
 10
0.0
 20
0.0
 30
0.0
 40
0.6324555320336753
  0
CIRCLE
  5
C6
330
1F
100
AcDbEntity
  8
Layer1
100
AcDbCircle
 10
0.0
 20
-2.0
 30
0.0
 40
0.6324555320336753
  0
CIRCLE
  5
C7
330
1F
100
AcDbEntity
  8
Layer1
100
AcDbCircle
 10
0.0
 20
-4.0
 30
0.0
 40
0.6324555320336753
  0
CIRCLE
  5
C8
330
1F
100
AcDbEntity
  8
Layer1
100
AcDbCircle
 10
0.0
 20
-6.0
 30
0.0
 40
0.6324555320336753
  0
CIRCLE
  5
C9
330
1F
100
AcDbEntity
  8
Layer1
100
AcDbCircle
 10
0.0
 20
-8.0
 30
0.0
 40
0.6324555320336753
  0
CIRCLE
  5
CA
330
1F
100
AcDbEntity
  8
Layer1
100
AcDbCircle
 10
2.0
 20
8.0
 30
0.0
 40
0.6324555320336753
  0
CIRCLE
  5
CB
330
1F
100
AcDbEntity
  8
Layer1
100
AcDbCircle
 10
2.0
 20
6.0
 30
0.0
 40
0.6324555320336753
  0
CIRCLE
  5
CC
330
1F
100
AcDbEntity
  8
Layer1
100
AcDbCircle
 10
2.0
 20
4.0
 30
0.0
 40
0.6324555320336753
  0
CIRCLE
  5
CD
330
1F
100
AcDbEntity
  8
Layer1
100
AcDbCircle
 10
2.0
 20
2.0
 30
0.0
 40
0.6324555320336753
  0
CIRCLE
  5
CE
330
1F
100
AcDbEntity
  8
Layer1
100
AcDbCircle
 10
2.0
 20
0.0
 30
0.0
 40
0.6324555320336753
  0
CIRCLE
  5
CF
330
1F
100
AcDbEntity
  8
Layer1
100
AcDbCircle
 10
2.0
 20
-2.0
 30
0.0
 40
0.6324555320336753
  0
CIRCLE
  5
D0
330
1F
100
AcDbEntity
  8
Layer1
100
AcDbCircle
 10
2.0
 20
-4.0
 30
0.0
 40
0.6324555320336753
  0
CIRCLE
  5
D1
330
1F
100
AcDbEntity
  8
Layer1
100
AcDbCircle
 10
2.0
 20
-6.0
 30
0.0
 40
0.6324555320336753
  0
CIRCLE
  5
D2
330
1F
100
AcDbEntity
  8
Layer1
100
AcDbCircle
 10
2.0
 20
-8.0
 30
0.0
 40
0.6324555320336753
  0
CIRCLE
  5
D3
330
1F
100
AcDbEntity
  8
Layer1
100
AcDbCircle
 10
4.0
 20
8.0
 30
0.0
 40
0.6324555320336753
  0
CIRCLE
  5
D4
330
1F
100
AcDbEntity
  8
Layer1
100
AcDbCircle
 10
4.0
 20
6.0
 30
0.0
 40
0.6324555320336753
  0
CIRCLE
  5
D5
330
1F
100
AcDbEntity
  8
Layer1
100
AcDbCircle
 10
4.0
 20
4.0
 30
0.0
 40
0.6324555320336753
  0
CIRCLE
  5
D6
330
1F
100
AcDbEntity
  8
Layer1
100
AcDbCircle
 10
4.0
 20
2.0
 30
0.0
 40
0.6324555320336753
  0
CIRCLE
  5
D7
330
1F
100
AcDbEntity
  8
Layer1
100
AcDbCircle
 10
4.0
 20
0.0
 30
0.0
 40
0.6324555320336753
  0
CIRCLE
  5
D8
330
1F
100
AcDbEntity
  8
Layer1
100
AcDbCircle
 10
4.0
 20
-2.0
 30
0.0
 40
0.6324555320336753
  0
CIRCLE
  5
D9
330
1F
100
AcDbEntity
  8
Layer1
100
AcDbCircle
 10
4.0
 20
-4.0
 30
0.0
 40
0.6324555320336753
  0
CIRCLE
  5
DA
330
1F
100
AcDbEntity
  8
Layer1
100
AcDbCircle
 10
4.0
 20
-6.0
 30
0.0
 40
0.6324555320336753
  0
CIRCLE
  5
DB
330
1F
100
AcDbEntity
  8
Layer1
100
AcDbCircle
 10
4.0
 20
-8.0
 30
0.0
 40
0.6324555320336753
  0
CIRCLE
  5
DC
330
1F
100
AcDbEntity
  8
Layer1
100
AcDbCircle
 10
6.0
 20
8.0
 30
0.0
 40
0.6324555320336753
  0
CIRCLE
  5
DD
330
1F
100
AcDbEntity
  8
Layer1
100
AcDbCircle
 10
6.0
 20
6.0
 30
0.0
 40
0.6324555320336753
  0
CIRCLE
  5
DE
330
1F
100
AcDbEntity
  8
Layer1
100
AcDbCircle
 10
6.0
 20
4.0
 30
0.0
 40
0.6324555320336753
  0
CIRCLE
  5
DF
330
1F
100
AcDbEntity
  8
Layer1
100
AcDbCircle
 10
6.0
 20
2.0
 30
0.0
 40
0.6324555320336753
  0
CIRCLE
  5
E0
330
1F
100
AcDbEntity
  8
Layer1
100
AcDbCircle
 10
6.0
 20
0.0
 30
0.0
 40
0.6324555320336753
  0
CIRCLE
  5
E1
330
1F
100
AcDbEntity
  8
Layer1
100
AcDbCircle
 10
6.0
 20
-2.0
 30
0.0
 40
0.6324555320336753
  0
CIRCLE
  5
E2
330
1F
100
AcDbEntity
  8
Layer1
100
AcDbCircle
 10
6.0
 20
-4.0
 30
0.0
 40
0.6324555320336753
  0
CIRCLE
  5
E3
330
1F
100
AcDbEntity
  8
Layer1
100
AcDbCircle
 10
6.0
 20
-6.0
 30
0.0
 40
0.6324555320336753
  0
CIRCLE
  5
E4
330
1F
100
AcDbEntity
  8
Layer1
100
AcDbCircle
 10
6.0
 20
-8.0
 30
0.0
 40
0.6324555320336753
  0
CIRCLE
  5
E5
330
1F
100
AcDbEntity
  8
Layer1
100
AcDbCircle
 10
8.0
 20
8.0
 30
0.0
 40
0.6324555320336753
  0
CIRCLE
  5
E6
330
1F
100
AcDbEntity
  8
Layer1
100
AcDbCircle
 10
8.0
 20
6.0
 30
0.0
 40
0.6324555320336753
  0
CIRCLE
  5
E7
330
1F
100
AcDbEntity
  8
Layer1
100
AcDbCircle
 10
8.0
 20
4.0
 30
0.0
 40
0.6324555320336753
  0
CIRCLE
  5
E8
330
1F
100
AcDbEntity
  8
Layer1
100
AcDbCircle
 10
8.0
 20
2.0
 30
0.0
 40
0.6324555320336753
  0
CIRCLE
  5
E9
330
1F
100
AcDbEntity
  8
Layer1
100
AcDbCircle
 10
8.0
 20
0.0
 30
0.0
 40
0.6324555320336753
  0
CIRCLE
  5
EA
330
1F
100
AcDbEntity
  8
Layer1
100
AcDbCircle
 10
8.0
 20
-2.0
 30
0.0
 40
0.6324555320336753
  0
CIRCLE
  5
EB
330
1F
100
AcDbEntity
  8
Layer1
100
AcDbCircle
 10
8.0
 20
-4.0
 30
0.0
 40
0.6324555320336753
  0
CIRCLE
  5
EC
330
1F
100
AcDbEntity
  8
Layer1
100
AcDbCircle
 10
8.0
 20
-6.0
 30
0.0
 40
0.6324555320336753
  0
CIRCLE
  5
ED
330
1F
100
AcDbEntity
  8
Layer1
100
AcDbCircle
 10
8.0
 20
-8.0
 30
0.0
 40
0.6324555320336753
  0
LWPOLYLINE
  5
EE
330
1F
100
AcDbEntity
  8
Layer1
100
AcDbPolyline
 90
        4
 70
     1
 43
0.0
 10
15.0
 20
-10.0
 10
35.0
 20
-10.0
 10
35.0
 20
10.0
 10
15.0
 20
10.0
  0
CIRCLE
  5
EF
330
1F
100
AcDbEntity
  8
Layer1
100
AcDbCircle
 10
17.0
 20
8.0
 30
0.0
 40
0.6324555320336753
  0
CIRCLE
  5
F0
330
1F
100
AcDbEntity
  8
Layer1
100
AcDbCircle
 10
17.0
 20
6.0
 30
0.0
 40
0.6324555320336753
  0
CIRCLE
  5
F1
330
1F
100
AcDbEntity
  8
Layer1
100
AcDbCircle
 10
17.0
 20
4.0
 30
0.0
 40
0.6324555320336753
  0
CIRCLE
  5
F2
330
1F
100
AcDbEntity
  8
Layer1
100
AcDbCircle
 10
17.0
 20
2.0
 30
0.0
 40
0.6324555320336753
  0
CIRCLE
  5
F3
330
1F
100
AcDbEntity
  8
Layer1
100
AcDbCircle
 10
17.0
 20
0.0
 30
0.0
 40
0.6324555320336753
  0
CIRCLE
  5
F4
330
1F
100
AcDbEntity
  8
Layer1
100
AcDbCircle
 10
17.0
 20
-2.0
 30
0.0
 40
0.6324555320336753
  0
CIRCLE
  5
F5
330
1F
100
AcDbEntity
  8
Layer1
100
AcDbCircle
 10
17.0
 20
-4.0
 30
0.0
 40
0.6324555320336753
  0
CIRCLE
  5
F6
330
1F
100
AcDbEntity
  8
Layer1
100
AcDbCircle
 10
17.0
 20
-6.0
 30
0.0
 40
0.6324555320336753
  0
CIRCLE
  5
F7
330
1F
100
AcDbEntity
  8
Layer1
100
AcDbCircle
 10
17.0
 20
-8.0
 30
0.0
 40
0.6324555320336753
  0
CIRCLE
  5
F8
330
1F
100
AcDbEntity
  8
Layer1
100
AcDbCircle
 10
19.0
 20
8.0
 30
0.0
 40
0.6324555320336753
  0
CIRCLE
  5
F9
330
1F
100
AcDbEntity
  8
Layer1
100
AcDbCircle
 10
19.0
 20
6.0
 30
0.0
 40
0.6324555320336753
  0
CIRCLE
  5
FA
330
1F
100
AcDbEntity
  8
Layer1
100
AcDbCircle
 10
19.0
 20
4.0
 30
0.0
 40
0.6324555320336753
  0
CIRCLE
  5
FB
330
1F
100
AcDbEntity
  8
Layer1
100
AcDbCircle
 10
19.0
 20
2.0
 30
0.0
 40
0.6324555320336753
  0
CIRCLE
  5
FC
330
1F
100
AcDbEntity
  8
Layer1
100
AcDbCircle
 10
19.0
 20
0.0
 30
0.0
 40
0.6324555320336753
  0
CIRCLE
  5
FD
330
1F
100
AcDbEntity
  8
Layer1
100
AcDbCircle
 10
19.0
 20
-2.0
 30
0.0
 40
0.6324555320336753
  0
CIRCLE
  5
FE
330
1F
100
AcDbEntity
  8
Layer1
100
AcDbCircle
 10
19.0
 20
-4.0
 30
0.0
 40
0.6324555320336753
  0
CIRCLE
  5
FF
330
1F
100
AcDbEntity
  8
Layer1
100
AcDbCircle
 10
19.0
 20
-6.0
 30
0.0
 40
0.6324555320336753
  0
CIRCLE
  5
100
330
1F
100
AcDbEntity
  8
Layer1
100
AcDbCircle
 10
19.0
 20
-8.0
 30
0.0
 40
0.6324555320336753
  0
CIRCLE
  5
101
330
1F
100
AcDbEntity
  8
Layer1
100
AcDbCircle
 10
21.0
 20
8.0
 30
0.0
 40
0.6324555320336753
  0
CIRCLE
  5
102
330
1F
100
AcDbEntity
  8
Layer1
100
AcDbCircle
 10
21.0
 20
6.0
 30
0.0
 40
0.6324555320336753
  0
CIRCLE
  5
103
330
1F
100
AcDbEntity
  8
Layer1
100
AcDbCircle
 10
21.0
 20
4.0
 30
0.0
 40
0.6324555320336753
  0
CIRCLE
  5
104
330
1F
100
AcDbEntity
  8
Layer1
100
AcDbCircle
 10
21.0
 20
2.0
 30
0.0
 40
0.6324555320336753
  0
CIRCLE
  5
105
330
1F
100
AcDbEntity
  8
Layer1
100
AcDbCircle
 10
21.0
 20
0.0
 30
0.0
 40
0.6324555320336753
  0
CIRCLE
  5
106
330
1F
100
AcDbEntity
  8
Layer1
100
AcDbCircle
 10
21.0
 20
-2.0
 30
0.0
 40
0.6324555320336753
  0
CIRCLE
  5
107
330
1F
100
AcDbEntity
  8
Layer1
100
AcDbCircle
 10
21.0
 20
-4.0
 30
0.0
 40
0.6324555320336753
  0
CIRCLE
  5
108
330
1F
100
AcDbEntity
  8
Layer1
100
AcDbCircle
 10
21.0
 20
-6.0
 30
0.0
 40
0.6324555320336753
  0
CIRCLE
  5
109
330
1F
100
AcDbEntity
  8
Layer1
100
AcDbCircle
 10
21.0
 20
-8.0
 30
0.0
 40
0.6324555320336753
  0
CIRCLE
  5
10A
330
1F
100
AcDbEntity
  8
Layer1
100
AcDbCircle
 10
23.0
 20
8.0
 30
0.0
 40
0.6324555320336753
  0
CIRCLE
  5
10B
330
1F
100
AcDbEntity
  8
Layer1
100
AcDbCircle
 10
23.0
 20
6.0
 30
0.0
 40
0.6324555320336753
  0
CIRCLE
  5
10C
330
1F
100
AcDbEntity
  8
Layer1
100
AcDbCircle
 10
23.0
 20
4.0
 30
0.0
 40
0.6324555320336753
  0
CIRCLE
  5
10D
330
1F
100
AcDbEntity
  8
Layer1
100
AcDbCircle
 10
23.0
 20
2.0
 30
0.0
 40
0.6324555320336753
  0
CIRCLE
  5
10E
330
1F
100
AcDbEntity
  8
Layer1
100
AcDbCircle
 10
23.0
 20
0.0
 30
0.0
 40
0.6324555320336753
  0
CIRCLE
  5
10F
330
1F
100
AcDbEntity
  8
Layer1
100
AcDbCircle
 10
23.0
 20
-2.0
 30
0.0
 40
0.6324555320336753
  0
CIRCLE
  5
110
330
1F
100
AcDbEntity
  8
Layer1
100
AcDbCircle
 10
23.0
 20
-4.0
 30
0.0
 40
0.6324555320336753
  0
CIRCLE
  5
111
330
1F
100
AcDbEntity
  8
Layer1
100
AcDbCircle
 10
23.0
 20
-6.0
 30
0.0
 40
0.6324555320336753
  0
CIRCLE
  5
112
330
1F
100
AcDbEntity
  8
Layer1
100
AcDbCircle
 10
23.0
 20
-8.0
 30
0.0
 40
0.6324555320336753
  0
CIRCLE
  5
113
330
1F
100
AcDbEntity
  8
Layer1
100
AcDbCircle
 10
25.0
 20
8.0
 30
0.0
 40
0.6324555320336753
  0
CIRCLE
  5
114
330
1F
100
AcDbEntity
  8
Layer1
100
AcDbCircle
 10
25.0
 20
6.0
 30
0.0
 40
0.6324555320336753
  0
CIRCLE
  5
115
330
1F
100
AcDbEntity
  8
Layer1
100
AcDbCircle
 10
25.0
 20
4.0
 30
0.0
 40
0.6324555320336753
  0
CIRCLE
  5
116
330
1F
100
AcDbEntity
  8
Layer1
100
AcDbCircle
 10
25.0
 20
2.0
 30
0.0
 40
0.6324555320336753
  0
CIRCLE
  5
117
330
1F
100
AcDbEntity
  8
Layer1
100
AcDbCircle
 10
25.0
 20
0.0
 30
0.0
 40
0.6324555320336753
  0
CIRCLE
  5
118
330
1F
100
AcDbEntity
  8
Layer1
100
AcDbCircle
 10
25.0
 20
-2.0
 30
0.0
 40
0.6324555320336753
  0
CIRCLE
  5
119
330
1F
100
AcDbEntity
  8
Layer1
100
AcDbCircle
 10
25.0
 20
-4.0
 30
0.0
 40
0.6324555320336753
  0
CIRCLE
  5
11A
330
1F
100
AcDbEntity
  8
Layer1
100
AcDbCircle
 10
25.0
 20
-6.0
 30
0.0
 40
0.6324555320336753
  0
CIRCLE
  5
11B
330
1F
100
AcDbEntity
  8
Layer1
100
AcDbCircle
 10
25.0
 20
-8.0
 30
0.0
 40
0.6324555320336753
  0
CIRCLE
  5
11C
330
1F
100
AcDbEntity
  8
Layer1
100
AcDbCircle
 10
27.0
 20
8.0
 30
0.0
 40
0.6324555320336753
  0
CIRCLE
  5
11D
330
1F
100
AcDbEntity
  8
Layer1
100
AcDbCircle
 10
27.0
 20
6.0
 30
0.0
 40
0.6324555320336753
  0
CIRCLE
  5
11E
330
1F
100
AcDbEntity
  8
Layer1
100
AcDbCircle
 10
27.0
 20
4.0
 30
0.0
 40
0.6324555320336753
  0
CIRCLE
  5
11F
330
1F
100
AcDbEntity
  8
Layer1
100
AcDbCircle
 10
27.0
 20
2.0
 30
0.0
 40
0.6324555320336753
  0
CIRCLE
  5
120
330
1F
100
AcDbEntity
  8
Layer1
100
AcDbCircle
 10
27.0
 20
0.0
 30
0.0
 40
0.6324555320336753
  0
CIRCLE
  5
121
330
1F
100
AcDbEntity
  8
Layer1
100
AcDbCircle
 10
27.0
 20
-2.0
 30
0.0
 40
0.6324555320336753
  0
CIRCLE
  5
122
330
1F
100
AcDbEntity
  8
Layer1
100
AcDbCircle
 10
27.0
 20
-4.0
 30
0.0
 40
0.6324555320336753
  0
CIRCLE
  5
123
330
1F
100
AcDbEntity
  8
Layer1
100
AcDbCircle
 10
27.0
 20
-6.0
 30
0.0
 40
0.6324555320336753
  0
CIRCLE
  5
124
330
1F
100
AcDbEntity
  8
Layer1
100
AcDbCircle
 10
27.0
 20
-8.0
 30
0.0
 40
0.6324555320336753
  0
CIRCLE
  5
125
330
1F
100
AcDbEntity
  8
Layer1
100
AcDbCircle
 10
29.0
 20
8.0
 30
0.0
 40
0.6324555320336753
  0
CIRCLE
  5
126
330
1F
100
AcDbEntity
  8
Layer1
100
AcDbCircle
 10
29.0
 20
6.0
 30
0.0
 40
0.6324555320336753
  0
CIRCLE
  5
127
330
1F
100
AcDbEntity
  8
Layer1
100
AcDbCircle
 10
29.0
 20
4.0
 30
0.0
 40
0.6324555320336753
  0
CIRCLE
  5
128
330
1F
100
AcDbEntity
  8
Layer1
100
AcDbCircle
 10
29.0
 20
2.0
 30
0.0
 40
0.6324555320336753
  0
CIRCLE
  5
129
330
1F
100
AcDbEntity
  8
Layer1
100
AcDbCircle
 10
29.0
 20
0.0
 30
0.0
 40
0.6324555320336753
  0
CIRCLE
  5
12A
330
1F
100
AcDbEntity
  8
Layer1
100
AcDbCircle
 10
29.0
 20
-2.0
 30
0.0
 40
0.6324555320336753
  0
CIRCLE
  5
12B
330
1F
100
AcDbEntity
  8
Layer1
100
AcDbCircle
 10
29.0
 20
-4.0
 30
0.0
 40
0.6324555320336753
  0
CIRCLE
  5
12C
330
1F
100
AcDbEntity
  8
Layer1
100
AcDbCircle
 10
29.0
 20
-6.0
 30
0.0
 40
0.6324555320336753
  0
CIRCLE
  5
12D
330
1F
100
AcDbEntity
  8
Layer1
100
AcDbCircle
 10
29.0
 20
-8.0
 30
0.0
 40
0.6324555320336753
  0
CIRCLE
  5
12E
330
1F
100
AcDbEntity
  8
Layer1
100
AcDbCircle
 10
31.0
 20
8.0
 30
0.0
 40
0.6324555320336753
  0
CIRCLE
  5
12F
330
1F
100
AcDbEntity
  8
Layer1
100
AcDbCircle
 10
31.0
 20
6.0
 30
0.0
 40
0.6324555320336753
  0
CIRCLE
  5
130
330
1F
100
AcDbEntity
  8
Layer1
100
AcDbCircle
 10
31.0
 20
4.0
 30
0.0
 40
0.6324555320336753
  0
CIRCLE
  5
131
330
1F
100
AcDbEntity
  8
Layer1
100
AcDbCircle
 10
31.0
 20
2.0
 30
0.0
 40
0.6324555320336753
  0
CIRCLE
  5
132
330
1F
100
AcDbEntity
  8
Layer1
100
AcDbCircle
 10
31.0
 20
0.0
 30
0.0
 40
0.6324555320336753
  0
CIRCLE
  5
133
330
1F
100
AcDbEntity
  8
Layer1
100
AcDbCircle
 10
31.0
 20
-2.0
 30
0.0
 40
0.6324555320336753
  0
CIRCLE
  5
134
330
1F
100
AcDbEntity
  8
Layer1
100
AcDbCircle
 10
31.0
 20
-4.0
 30
0.0
 40
0.6324555320336753
  0
CIRCLE
  5
135
330
1F
100
AcDbEntity
  8
Layer1
100
AcDbCircle
 10
31.0
 20
-6.0
 30
0.0
 40
0.6324555320336753
  0
CIRCLE
  5
136
330
1F
100
AcDbEntity
  8
Layer1
100
AcDbCircle
 10
31.0
 20
-8.0
 30
0.0
 40
0.6324555320336753
  0
CIRCLE
  5
137
330
1F
100
AcDbEntity
  8
Layer1
100
AcDbCircle
 10
33.0
 20
8.0
 30
0.0
 40
0.6324555320336753
  0
CIRCLE
  5
138
330
1F
100
AcDbEntity
  8
Layer1
100
AcDbCircle
 10
33.0
 20
6.0
 30
0.0
 40
0.6324555320336753
  0
CIRCLE
  5
139
330
1F
100
AcDbEntity
  8
Layer1
100
AcDbCircle
 10
33.0
 20
4.0
 30
0.0
 40
0.6324555320336753
  0
CIRCLE
  5
13A
330
1F
100
AcDbEntity
  8
Layer1
100
AcDbCircle
 10
33.0
 20
2.0
 30
0.0
 40
0.6324555320336753
  0
CIRCLE
  5
13B
330
1F
100
AcDbEntity
  8
Layer1
100
AcDbCircle
 10
33.0
 20
0.0
 30
0.0
 40
0.6324555320336753
  0
CIRCLE
  5
13C
330
1F
100
AcDbEntity
  8
Layer1
100
AcDbCircle
 10
33.0
 20
-2.0
 30
0.0
 40
0.6324555320336753
  0
CIRCLE
  5
13D
330
1F
100
AcDbEntity
  8
Layer1
100
AcDbCircle
 10
33.0
 20
-4.0
 30
0.0
 40
0.6324555320336753
  0
CIRCLE
  5
13E
330
1F
100
AcDbEntity
  8
Layer1
100
AcDbCircle
 10
33.0
 20
-6.0
 30
0.0
 40
0.6324555320336753
  0
CIRCLE
  5
13F
330
1F
100
AcDbEntity
  8
Layer1
100
AcDbCircle
 10
33.0
 20
-8.0
 30
0.0
 40
0.6324555320336753
  0
LWPOLYLINE
  5
140
330
1F
100
AcDbEntity
  8
Layer1
100
AcDbPolyline
 90
        4
 70
     1
 43
0.0
 10
22.0
 20
3.0
 10
28.0
 20
3.0
 10
28.0
 20
-3.0
 10
22.0
 20
-3.0
  0
LWPOLYLINE
  5
141
330
1F
100
AcDbEntity
  8
Layer1
100
AcDbPolyline
 90
        4
 70
     1
 43
0.0
 10
40.0
 20
-10.0
 10
60.0
 20
-10.0
 10
60.0
 20
10.0
 10
40.0
 20
10.0
  0
CIRCLE
  5
142
330
1F
100
AcDbEntity
  8
Layer1
100
AcDbCircle
 10
42.0
 20
8.0
 30
0.0
 40
0.6324555320336753
  0
CIRCLE
  5
143
330
1F
100
AcDbEntity
  8
Layer1
100
AcDbCircle
 10
42.0
 20
6.0
 30
0.0
 40
0.6324555320336753
  0
CIRCLE
  5
144
330
1F
100
AcDbEntity
  8
Layer1
100
AcDbCircle
 10
42.0
 20
4.0
 30
0.0
 40
0.6324555320336753
  0
CIRCLE
  5
145
330
1F
100
AcDbEntity
  8
Layer1
100
AcDbCircle
 10
42.0
 20
2.0
 30
0.0
 40
0.6324555320336753
  0
CIRCLE
  5
146
330
1F
100
AcDbEntity
  8
Layer1
100
AcDbCircle
 10
42.0
 20
0.0
 30
0.0
 40
0.6324555320336753
  0
CIRCLE
  5
147
330
1F
100
AcDbEntity
  8
Layer1
100
AcDbCircle
 10
42.0
 20
-2.0
 30
0.0
 40
0.6324555320336753
  0
CIRCLE
  5
148
330
1F
100
AcDbEntity
  8
Layer1
100
AcDbCircle
 10
42.0
 20
-4.0
 30
0.0
 40
0.6324555320336753
  0
CIRCLE
  5
149
330
1F
100
AcDbEntity
  8
Layer1
100
AcDbCircle
 10
42.0
 20
-6.0
 30
0.0
 40
0.6324555320336753
  0
CIRCLE
  5
14A
330
1F
100
AcDbEntity
  8
Layer1
100
AcDbCircle
 10
42.0
 20
-8.0
 30
0.0
 40
0.6324555320336753
  0
CIRCLE
  5
14B
330
1F
100
AcDbEntity
  8
Layer1
100
AcDbCircle
 10
44.0
 20
8.0
 30
0.0
 40
0.6324555320336753
  0
CIRCLE
  5
14C
330
1F
100
AcDbEntity
  8
Layer1
100
AcDbCircle
 10
44.0
 20
6.0
 30
0.0
 40
0.6324555320336753
  0
CIRCLE
  5
14D
330
1F
100
AcDbEntity
  8
Layer1
100
AcDbCircle
 10
44.0
 20
4.0
 30
0.0
 40
0.6324555320336753
  0
CIRCLE
  5
14E
330
1F
100
AcDbEntity
  8
Layer1
100
AcDbCircle
 10
44.0
 20
2.0
 30
0.0
 40
0.6324555320336753
  0
CIRCLE
  5
14F
330
1F
100
AcDbEntity
  8
Layer1
100
AcDbCircle
 10
44.0
 20
0.0
 30
0.0
 40
0.6324555320336753
  0
CIRCLE
  5
150
330
1F
100
AcDbEntity
  8
Layer1
100
AcDbCircle
 10
44.0
 20
-2.0
 30
0.0
 40
0.6324555320336753
  0
CIRCLE
  5
151
330
1F
100
AcDbEntity
  8
Layer1
100
AcDbCircle
 10
44.0
 20
-4.0
 30
0.0
 40
0.6324555320336753
  0
CIRCLE
  5
152
330
1F
100
AcDbEntity
  8
Layer1
100
AcDbCircle
 10
44.0
 20
-6.0
 30
0.0
 40
0.6324555320336753
  0
CIRCLE
  5
153
330
1F
100
AcDbEntity
  8
Layer1
100
AcDbCircle
 10
44.0
 20
-8.0
 30
0.0
 40
0.6324555320336753
  0
CIRCLE
  5
154
330
1F
100
AcDbEntity
  8
Layer1
100
AcDbCircle
 10
46.0
 20
8.0
 30
0.0
 40
0.6324555320336753
  0
CIRCLE
  5
155
330
1F
100
AcDbEntity
  8
Layer1
100
AcDbCircle
 10
46.0
 20
6.0
 30
0.0
 40
0.6324555320336753
  0
CIRCLE
  5
156
330
1F
100
AcDbEntity
  8
Layer1
100
AcDbCircle
 10
46.0
 20
4.0
 30
0.0
 40
0.6324555320336753
  0
CIRCLE
  5
157
330
1F
100
AcDbEntity
  8
Layer1
100
AcDbCircle
 10
46.0
 20
2.0
 30
0.0
 40
0.6324555320336753
  0
CIRCLE
  5
158
330
1F
100
AcDbEntity
  8
Layer1
100
AcDbCircle
 10
46.0
 20
0.0
 30
0.0
 40
0.6324555320336753
  0
CIRCLE
  5
159
330
1F
100
AcDbEntity
  8
Layer1
100
AcDbCircle
 10
46.0
 20
-2.0
 30
0.0
 40
0.6324555320336753
  0
CIRCLE
  5
15A
330
1F
100
AcDbEntity
  8
Layer1
100
AcDbCircle
 10
46.0
 20
-4.0
 30
0.0
 40
0.6324555320336753
  0
CIRCLE
  5
15B
330
1F
100
AcDbEntity
  8
Layer1
100
AcDbCircle
 10
46.0
 20
-6.0
 30
0.0
 40
0.6324555320336753
  0
CIRCLE
  5
15C
330
1F
100
AcDbEntity
  8
Layer1
100
AcDbCircle
 10
46.0
 20
-8.0
 30
0.0
 40
0.6324555320336753
  0
CIRCLE
  5
15D
330
1F
100
AcDbEntity
  8
Layer1
100
AcDbCircle
 10
48.0
 20
8.0
 30
0.0
 40
0.6324555320336753
  0
CIRCLE
  5
15E
330
1F
100
AcDbEntity
  8
Layer1
100
AcDbCircle
 10
48.0
 20
6.0
 30
0.0
 40
0.6324555320336753
  0
CIRCLE
  5
15F
330
1F
100
AcDbEntity
  8
Layer1
100
AcDbCircle
 10
48.0
 20
4.0
 30
0.0
 40
0.6324555320336753
  0
CIRCLE
  5
160
330
1F
100
AcDbEntity
  8
Layer1
100
AcDbCircle
 10
48.0
 20
2.0
 30
0.0
 40
0.6324555320336753
  0
CIRCLE
  5
161
330
1F
100
AcDbEntity
  8
Layer1
100
AcDbCircle
 10
48.0
 20
0.0
 30
0.0
 40
0.6324555320336753
  0
CIRCLE
  5
162
330
1F
100
AcDbEntity
  8
Layer1
100
AcDbCircle
 10
48.0
 20
-2.0
 30
0.0
 40
0.6324555320336753
  0
CIRCLE
  5
163
330
1F
100
AcDbEntity
  8
Layer1
100
AcDbCircle
 10
48.0
 20
-4.0
 30
0.0
 40
0.6324555320336753
  0
CIRCLE
  5
164
330
1F
100
AcDbEntity
  8
Layer1
100
AcDbCircle
 10
48.0
 20
-6.0
 30
0.0
 40
0.6324555320336753
  0
CIRCLE
  5
165
330
1F
100
AcDbEntity
  8
Layer1
100
AcDbCircle
 10
48.0
 20
-8.0
 30
0.0
 40
0.6324555320336753
  0
CIRCLE
  5
166
330
1F
100
AcDbEntity
  8
Layer1
100
AcDbCircle
 10
50.0
 20
8.0
 30
0.0
 40
0.6324555320336753
  0
CIRCLE
  5
167
330
1F
100
AcDbEntity
  8
Layer1
100
AcDbCircle
 10
50.0
 20
6.0
 30
0.0
 40
0.6324555320336753
  0
CIRCLE
  5
168
330
1F
100
AcDbEntity
  8
Layer1
100
AcDbCircle
 10
50.0
 20
4.0
 30
0.0
 40
0.6324555320336753
  0
CIRCLE
  5
169
330
1F
100
AcDbEntity
  8
Layer1
100
AcDbCircle
 10
50.0
 20
2.0
 30
0.0
 40
0.6324555320336753
  0
CIRCLE
  5
16A
330
1F
100
AcDbEntity
  8
Layer1
100
AcDbCircle
 10
50.0
 20
0.0
 30
0.0
 40
0.6324555320336753
  0
CIRCLE
  5
16B
330
1F
100
AcDbEntity
  8
Layer1
100
AcDbCircle
 10
50.0
 20
-2.0
 30
0.0
 40
0.6324555320336753
  0
CIRCLE
  5
16C
330
1F
100
AcDbEntity
  8
Layer1
100
AcDbCircle
 10
50.0
 20
-4.0
 30
0.0
 40
0.6324555320336753
  0
CIRCLE
  5
16D
330
1F
100
AcDbEntity
  8
Layer1
100
AcDbCircle
 10
50.0
 20
-6.0
 30
0.0
 40
0.6324555320336753
  0
CIRCLE
  5
16E
330
1F
100
AcDbEntity
  8
Layer1
100
AcDbCircle
 10
50.0
 20
-8.0
 30
0.0
 40
0.6324555320336753
  0
CIRCLE
  5
16F
330
1F
100
AcDbEntity
  8
Layer1
100
AcDbCircle
 10
52.0
 20
8.0
 30
0.0
 40
0.6324555320336753
  0
CIRCLE
  5
170
330
1F
100
AcDbEntity
  8
Layer1
100
AcDbCircle
 10
52.0
 20
6.0
 30
0.0
 40
0.6324555320336753
  0
CIRCLE
  5
171
330
1F
100
AcDbEntity
  8
Layer1
100
AcDbCircle
 10
52.0
 20
4.0
 30
0.0
 40
0.6324555320336753
  0
CIRCLE
  5
172
330
1F
100
AcDbEntity
  8
Layer1
100
AcDbCircle
 10
52.0
 20
2.0
 30
0.0
 40
0.6324555320336753
  0
CIRCLE
  5
173
330
1F
100
AcDbEntity
  8
Layer1
100
AcDbCircle
 10
52.0
 20
0.0
 30
0.0
 40
0.6324555320336753
  0
CIRCLE
  5
174
330
1F
100
AcDbEntity
  8
Layer1
100
AcDbCircle
 10
52.0
 20
-2.0
 30
0.0
 40
0.6324555320336753
  0
CIRCLE
  5
175
330
1F
100
AcDbEntity
  8
Layer1
100
AcDbCircle
 10
52.0
 20
-4.0
 30
0.0
 40
0.6324555320336753
  0
CIRCLE
  5
176
330
1F
100
AcDbEntity
  8
Layer1
100
AcDbCircle
 10
52.0
 20
-6.0
 30
0.0
 40
0.6324555320336753
  0
CIRCLE
  5
177
330
1F
100
AcDbEntity
  8
Layer1
100
AcDbCircle
 10
52.0
 20
-8.0
 30
0.0
 40
0.6324555320336753
  0
CIRCLE
  5
178
330
1F
100
AcDbEntity
  8
Layer1
100
AcDbCircle
 10
54.0
 20
8.0
 30
0.0
 40
0.6324555320336753
  0
CIRCLE
  5
179
330
1F
100
AcDbEntity
  8
Layer1
100
AcDbCircle
 10
54.0
 20
6.0
 30
0.0
 40
0.6324555320336753
  0
CIRCLE
  5
17A
330
1F
100
AcDbEntity
  8
Layer1
100
AcDbCircle
 10
54.0
 20
4.0
 30
0.0
 40
0.6324555320336753
  0
CIRCLE
  5
17B
330
1F
100
AcDbEntity
  8
Layer1
100
AcDbCircle
 10
54.0
 20
2.0
 30
0.0
 40
0.6324555320336753
  0
CIRCLE
  5
17C
330
1F
100
AcDbEntity
  8
Layer1
100
AcDbCircle
 10
54.0
 20
0.0
 30
0.0
 40
0.6324555320336753
  0
CIRCLE
  5
17D
330
1F
100
AcDbEntity
  8
Layer1
100
AcDbCircle
 10
54.0
 20
-2.0
 30
0.0
 40
0.6324555320336753
  0
CIRCLE
  5
17E
330
1F
100
AcDbEntity
  8
Layer1
100
AcDbCircle
 10
54.0
 20
-4.0
 30
0.0
 40
0.6324555320336753
  0
CIRCLE
  5
17F
330
1F
100
AcDbEntity
  8
Layer1
100
AcDbCircle
 10
54.0
 20
-6.0
 30
0.0
 40
0.6324555320336753
  0
CIRCLE
  5
180
330
1F
100
AcDbEntity
  8
Layer1
100
AcDbCircle
 10
54.0
 20
-8.0
 30
0.0
 40
0.6324555320336753
  0
CIRCLE
  5
181
330
1F
100
AcDbEntity
  8
Layer1
100
AcDbCircle
 10
56.0
 20
8.0
 30
0.0
 40
0.6324555320336753
  0
CIRCLE
  5
182
330
1F
100
AcDbEntity
  8
Layer1
100
AcDbCircle
 10
56.0
 20
6.0
 30
0.0
 40
0.6324555320336753
  0
CIRCLE
  5
183
330
1F
100
AcDbEntity
  8
Layer1
100
AcDbCircle
 10
56.0
 20
4.0
 30
0.0
 40
0.6324555320336753
  0
CIRCLE
  5
184
330
1F
100
AcDbEntity
  8
Layer1
100
AcDbCircle
 10
56.0
 20
2.0
 30
0.0
 40
0.6324555320336753
  0
CIRCLE
  5
185
330
1F
100
AcDbEntity
  8
Layer1
100
AcDbCircle
 10
56.0
 20
0.0
 30
0.0
 40
0.6324555320336753
  0
CIRCLE
  5
186
330
1F
100
AcDbEntity
  8
Layer1
100
AcDbCircle
 10
56.0
 20
-2.0
 30
0.0
 40
0.6324555320336753
  0
CIRCLE
  5
187
330
1F
100
AcDbEntity
  8
Layer1
100
AcDbCircle
 10
56.0
 20
-4.0
 30
0.0
 40
0.6324555320336753
  0
CIRCLE
  5
188
330
1F
100
AcDbEntity
  8
Layer1
100
AcDbCircle
 10
56.0
 20
-6.0
 30
0.0
 40
0.6324555320336753
  0
CIRCLE
  5
189
330
1F
100
AcDbEntity
  8
Layer1
100
AcDbCircle
 10
56.0
 20
-8.0
 30
0.0
 40
0.6324555320336753
  0
CIRCLE
  5
18A
330
1F
100
AcDbEntity
  8
Layer1
100
AcDbCircle
 10
58.0
 20
8.0
 30
0.0
 40
0.6324555320336753
  0
CIRCLE
  5
18B
330
1F
100
AcDbEntity
  8
Layer1
100
AcDbCircle
 10
58.0
 20
6.0
 30
0.0
 40
0.6324555320336753
  0
CIRCLE
  5
18C
330
1F
100
AcDbEntity
  8
Layer1
100
AcDbCircle
 10
58.0
 20
4.0
 30
0.0
 40
0.6324555320336753
  0
CIRCLE
  5
18D
330
1F
100
AcDbEntity
  8
Layer1
100
AcDbCircle
 10
58.0
 20
2.0
 30
0.0
 40
0.6324555320336753
  0
CIRCLE
  5
18E
330
1F
100
AcDbEntity
  8
Layer1
100
AcDbCircle
 10
58.0
 20
0.0
 30
0.0
 40
0.6324555320336753
  0
CIRCLE
  5
18F
330
1F
100
AcDbEntity
  8
Layer1
100
AcDbCircle
 10
58.0
 20
-2.0
 30
0.0
 40
0.6324555320336753
  0
CIRCLE
  5
190
330
1F
100
AcDbEntity
  8
Layer1
100
AcDbCircle
 10
58.0
 20
-4.0
 30
0.0
 40
0.6324555320336753
  0
CIRCLE
  5
191
330
1F
100
AcDbEntity
  8
Layer1
100
AcDbCircle
 10
58.0
 20
-6.0
 30
0.0
 40
0.6324555320336753
  0
CIRCLE
  5
192
330
1F
100
AcDbEntity
  8
Layer1
100
AcDbCircle
 10
58.0
 20
-8.0
 30
0.0
 40
0.6324555320336753
  0
LWPOLYLINE
  5
193
330
1F
100
AcDbEntity
  8
Layer1
100
AcDbPolyline
 90
        4
 70
     1
 43
0.0
 10
47.0
 20
3.0
 10
53.0
 20
3.0
 10
53.0
 20
-3.0
 10
47.0
 20
-3.0
  0
CIRCLE
  5
194
330
1F
100
AcDbEntity
  8
Layer1
100
AcDbCircle
 10
43.0
 20
-7.0
 30
0.0
 40
0.3999999999999986
  0
LWPOLYLINE
  5
195
330
1F
100
AcDbEntity
  8
Layer1
100
AcDbPolyline
 90
        2
 70
     0
 43
0.5
 10
43.0
 20
-7.0
 10
42.0
 20
-8.0
  0
CIRCLE
  5
196
330
1F
100
AcDbEntity
  8
Layer1
100
AcDbCircle
 10
45.0
 20
-5.0
 30
0.0
 40
0.3999999999999986
  0
LWPOLYLINE
  5
197
330
1F
100
AcDbEntity
  8
Layer1
100
AcDbPolyline
 90
        2
 70
     0
 43
0.5
 10
45.0
 20
-5.0
 10
44.0
 20
-6.0
  0
CIRCLE
  5
198
330
1F
100
AcDbEntity
  8
Layer1
100
AcDbCircle
 10
47.0
 20
-5.0
 30
0.0
 40
0.3999999999999986
  0
LWPOLYLINE
  5
199
330
1F
100
AcDbEntity
  8
Layer1
100
AcDbPolyline
 90
        2
 70
     0
 43
0.5
 10
47.0
 20
-5.0
 10
46.0
 20
-6.0
  0
CIRCLE
  5
19A
330
1F
100
AcDbEntity
  8
Layer1
100
AcDbCircle
 10
45.0
 20
-7.0
 30
0.0
 40
0.3999999999999986
  0
LWPOLYLINE
  5
19B
330
1F
100
AcDbEntity
  8
Layer1
100
AcDbPolyline
 90
        2
 70
     0
 43
0.5
 10
45.0
 20
-7.0
 10
44.0
 20
-8.0
  0
CIRCLE
  5
19C
330
1F
100
AcDbEntity
  8
Layer1
100
AcDbCircle
 10
47.0
 20
-7.0
 30
0.0
 40
0.3999999999999986
  0
LWPOLYLINE
  5
19D
330
1F
100
AcDbEntity
  8
Layer1
100
AcDbPolyline
 90
        2
 70
     0
 43
0.5
 10
47.0
 20
-7.0
 10
46.0
 20
-8.0
  0
CIRCLE
  5
19E
330
1F
100
AcDbEntity
  8
Layer1
100
AcDbCircle
 10
43.0
 20
-5.0
 30
0.0
 40
0.3999999999999986
  0
LWPOLYLINE
  5
19F
330
1F
100
AcDbEntity
  8
Layer1
100
AcDbPolyline
 90
        2
 70
     0
 43
0.5
 10
43.0
 20
-5.0
 10
42.0
 20
-6.0
  0
CIRCLE
  5
1A0
330
1F
100
AcDbEntity
  8
Layer1
100
AcDbCircle
 10
43.0
 20
-3.100000000000001
 30
0.0
 40
0.3999999999999986
  0
LWPOLYLINE
  5
1A1
330
1F
100
AcDbEntity
  8
Layer1
100
AcDbPolyline
 90
        2
 70
     0
 43
0.5
 10
43.0
 20
-3.100000000000001
 10
42.0
 20
-4.100000000000001
  0
CIRCLE
  5
1A2
330
1F
100
AcDbEntity
  8
Layer1
100
AcDbCircle
 10
45.0
 20
-3.100000000000001
 30
0.0
 40
0.3999999999999986
  0
LWPOLYLINE
  5
1A3
330
1F
100
AcDbEntity
  8
Layer1
100
AcDbPolyline
 90
        2
 70
     0
 43
0.5
 10
45.0
 20
-3.100000000000001
 10
44.0
 20
-4.100000000000001
  0
CIRCLE
  5
1A4
330
1F
100
AcDbEntity
  8
Layer1
100
AcDbCircle
 10
49.0
 20
-1.100000000000001
 30
0.0
 40
0.3999999999999986
  0
LWPOLYLINE
  5
1A5
330
1F
100
AcDbEntity
  8
Layer1
100
AcDbPolyline
 90
        2
 70
     0
 43
0.5
 10
49.0
 20
-1.100000000000001
 10
48.0
 20
-2.100000000000001
  0
CIRCLE
  5
1A6
330
1F
100
AcDbEntity
  8
Layer1
100
AcDbCircle
 10
51.0
 20
0.8999999999999985
 30
0.0
 40
0.3999999999999986
  0
LWPOLYLINE
  5
1A7
330
1F
100
AcDbEntity
  8
Layer1
100
AcDbPolyline
 90
        2
 70
     0
 43
0.5
 10
51.0
 20
0.8999999999999985
 10
50.0
 20
-0.1000000000000014
  0
CIRCLE
  5
1A8
330
1F
100
AcDbEntity
  8
Layer1
100
AcDbCircle
 10
49.0
 20
0.9999999999999928
 30
0.0
 40
0.3999999999999986
  0
LWPOLYLINE
  5
1A9
330
1F
100
AcDbEntity
  8
Layer1
100
AcDbPolyline
 90
        2
 70
     0
 43
0.5
 10
49.0
 20
0.9999999999999928
 10
48.0
 20
-0.0000000000000071
  0
CIRCLE
  5
1AA
330
1F
100
AcDbEntity
  8
Layer1
100
AcDbCircle
 10
50.89999999999999
 20
-1.100000000000001
 30
0.0
 40
0.3999999999999986
  0
LWPOLYLINE
  5
1AB
330
1F
100
AcDbEntity
  8
Layer1
100
AcDbPolyline
 90
        2
 70
     0
 43
0.5
 10
50.89999999999999
 20
-1.100000000000001
 10
49.9
 20
-2.100000000000001
  0
ENDSEC
  0
SECTION
  2
OBJECTS
  0
DICTIONARY
  5
C
330
0
100
AcDbDictionary
281
     1
  3
ACAD_COLOR
350
73
  3
ACAD_GROUP
350
D
  3
ACAD_LAYOUT
350
1A
  3
ACAD_MATERIAL
350
72
  3
ACAD_MLINESTYLE
350
17
  3
ACAD_PLOTSETTINGS
350
19
  3
ACAD_PLOTSTYLENAME
350
E
  3
ACAD_TABLESTYLE
350
86
  3
ACDBHEADERROUNDTRIPXREC
350
1C3
  3
AcDbVariableDictionary
350
66
  0
DICTIONARY
  5
96
330
2
100
AcDbDictionary
280
     1
281
     1
  3
ACAD_LAYERFILTERS
360
98
  3
ACLYDICTIONARY
360
97
  0
DICTIONARY
  5
73
102
{ACAD_REACTORS
330
C
102
}
330
C
100
AcDbDictionary
281
     1
  0
DICTIONARY
  5
D
102
{ACAD_REACTORS
330
C
102
}
330
C
100
AcDbDictionary
281
     1
  0
DICTIONARY
  5
1A
102
{ACAD_REACTORS
330
C
102
}
330
C
100
AcDbDictionary
281
     1
  3
Layout1
350
59
  3
Layout2
350
5E
  3
Model
350
22
  0
DICTIONARY
  5
72
102
{ACAD_REACTORS
330
C
102
}
330
C
100
AcDbDictionary
281
     1
  0
DICTIONARY
  5
17
102
{ACAD_REACTORS
330
C
102
}
330
C
100
AcDbDictionary
281
     1
  3
Standard
350
18
  0
DICTIONARY
  5
19
102
{ACAD_REACTORS
330
C
102
}
330
C
100
AcDbDictionary
281
     1
  0
ACDBDICTIONARYWDFLT
  5
E
102
{ACAD_REACTORS
330
C
102
}
330
C
100
AcDbDictionary
281
     1
  3
Normal
350
F
100
AcDbDictionaryWithDefault
340
F
  0
DICTIONARY
  5
86
102
{ACAD_REACTORS
330
C
102
}
330
C
100
AcDbDictionary
281
     1
  3
Standard
350
87
  0
DICTIONARY
  5
1C3
102
{ACAD_REACTORS
330
C
102
}
330
C
100
AcDbDictionary
281
     1
  0
DICTIONARY
  5
66
102
{ACAD_REACTORS
330
C
102
}
330
C
100
AcDbDictionary
281
     1
  3
CTABLESTYLE
350
8C
  3
DIMASSOC
350
67
  3
HIDETEXT
350
6B
  3
PROJECTNAME
350
1B5
  0
DICTIONARY
  5
98
102
{ACAD_REACTORS
330
96
102
}
330
96
100
AcDbDictionary
281
     1
  0
DICTIONARY
  5
97
102
{ACAD_REACTORS
330
96
102
}
330
96
100
AcDbDictionary
281
     1
1001
ACAD
1000
<All
  0
LAYOUT
  5
59
102
{ACAD_XDICTIONARY
360
1C6
102
}
102
{ACAD_REACTORS
330
1A
102
}
330
1A
100
AcDbPlotSettings
  1

  2
None
  4

  6

 40
0.0
 41
0.0
 42
0.0
 43
0.0
 44
0.0
 45
0.0
 46
0.0
 47
0.0
 48
0.0
 49
0.0
140
0.0
141
0.0
142
1.0
143
1.0
 70
   688
 72
     0
 73
     0
 74
     5
  7

 75
    16
147
1.0
148
0.0
149
0.0
100
AcDbLayout
  1
Layout1
 70
     1
 71
     1
 10
0.0
 20
0.0
 11
12.0
 21
9.0
 12
0.0
 22
0.0
 32
0.0
 14
0.0
 24
0.0
 34
0.0
 15
0.0
 25
0.0
 35
0.0
146
0.0
 13
0.0
 23
0.0
 33
0.0
 16
1.0
 26
0.0
 36
0.0
 17
0.0
 27
1.0
 37
0.0
 76
     0
330
58
  0
LAYOUT
  5
5E
102
{ACAD_XDICTIONARY
360
1C8
102
}
102
{ACAD_REACTORS
330
1A
102
}
330
1A
100
AcDbPlotSettings
  1

  2
None
  4

  6

 40
0.0
 41
0.0
 42
0.0
 43
0.0
 44
0.0
 45
0.0
 46
0.0
 47
0.0
 48
0.0
 49
0.0
140
0.0
141
0.0
142
1.0
143
1.0
 70
   688
 72
     0
 73
     0
 74
     5
  7

 75
    16
147
1.0
148
0.0
149
0.0
100
AcDbLayout
  1
Layout2
 70
     1
 71
     2
 10
0.0
 20
0.0
 11
12.0
 21
9.0
 12
0.0
 22
0.0
 32
0.0
 14
0.0
 24
0.0
 34
0.0
 15
0.0
 25
0.0
 35
0.0
146
0.0
 13
0.0
 23
0.0
 33
0.0
 16
1.0
 26
0.0
 36
0.0
 17
0.0
 27
1.0
 37
0.0
 76
     0
330
5D
  0
LAYOUT
  5
22
102
{ACAD_XDICTIONARY
360
1C4
102
}
102
{ACAD_REACTORS
330
1A
102
}
330
1A
100
AcDbPlotSettings
  1

  2
none_device
  4
ANSI_A_(8.50_x_11.00_Inches)
  6

 40
6.349999904632568
 41
19.04999923706055
 42
6.350006103515625
 43
19.04998779296875
 44
215.8999938964844
 45
279.3999938964844
 46
0.0
 47
0.0
 48
0.0
 49
0.0
140
0.0
141
0.0
142
1.0
143
2.584895464708373
 70
 11952
 72
     0
 73
     1
 74
     0
  7

 75
     0
147
0.3868628397755418
148
0.0
149
0.0
100
AcDbLayout
  1
Model
 70
     1
 71
     0
 10
0.0
 20
0.0
 11
12.0
 21
9.0
 12
0.0
 22
0.0
 32
0.0
 14
0.0
 24
0.0
 34
0.0
 15
0.0
 25
0.0
 35
0.0
146
0.0
 13
0.0
 23
0.0
 33
0.0
 16
1.0
 26
0.0
 36
0.0
 17
0.0
 27
1.0
 37
0.0
 76
     0
330
1F
  0
MLINESTYLE
  5
18
102
{ACAD_REACTORS
330
17
102
}
330
17
100
AcDbMlineStyle
  2
STANDARD
 70
     0
  3

 62
   256
 51
90.0
 52
90.0
 71
     2
 49
0.5
 62
   256
  6
BYLAYER
 49
-0.5
 62
   256
  6
BYLAYER
  0
ACDBPLACEHOLDER
  5
F
102
{ACAD_REACTORS
330
E
102
}
330
E
  0
TABLESTYLE
  5
87
102
{ACAD_REACTORS
330
86
102
}
330
86
100
AcDbTableStyle
  3
Standard
 70
     0
 71
     0
 40
0.06
 41
0.06
280
     0
281
     0
  7
Standard
140
0.18
170
     2
 62
     0
 63
     7
283
     0
274
    -2
284
     1
 64
     0
275
    -2
285
     1
 65
     0
276
    -2
286
     1
 66
     0
277
    -2
287
     1
 67
     0
278
    -2
288
     1
 68
     0
279
    -2
289
     1
 69
     0
  7
Standard
140
0.25
170
     5
 62
     0
 63
     7
283
     0
274
    -2
284
     1
 64
     0
275
    -2
285
     1
 65
     0
276
    -2
286
     1
 66
     0
277
    -2
287
     1
 67
     0
278
    -2
288
     1
 68
     0
279
    -2
289
     1
 69
     0
  7
Standard
140
0.18
170
     5
 62
     0
 63
     7
283
     0
274
    -2
284
     1
 64
     0
275
    -2
285
     1
 65
     0
276
    -2
286
     1
 66
     0
277
    -2
287
     1
 67
     0
278
    -2
288
     1
 68
     0
279
    -2
289
     1
 69
     0
  0
DICTIONARYVAR
  5
8C
102
{ACAD_REACTORS
330
66
102
}
330
66
100
DictionaryVariables
280
     0
  1
STANDARD
  0
DICTIONARYVAR
  5
67
102
{ACAD_REACTORS
330
66
102
}
330
66
100
DictionaryVariables
280
     0
  1
2
  0
DICTIONARYVAR
  5
6B
102
{ACAD_REACTORS
330
66
102
}
330
66
100
DictionaryVariables
280
     0
  1
1
  0
DICTIONARYVAR
  5
1B5
102
{ACAD_REACTORS
330
66
102
}
330
66
100
DictionaryVariables
280
     0
  1

  0
DICTIONARY
  5
1C6
330
59
100
AcDbDictionary
280
     1
281
     1
  3
ACAD_XREC_ROUNDTRIP
360
1C7
  0
DICTIONARY
  5
1C8
330
5E
100
AcDbDictionary
280
     1
281
     1
  3
ACAD_XREC_ROUNDTRIP
360
1C9
  0
DICTIONARY
  5
1C4
330
22
100
AcDbDictionary
280
     1
281
     1
  3
ACAD_XREC_ROUNDTRIP
360
1C5
  0
XRECORD
  5
1C7
102
{ACAD_REACTORS
330
1C6
102
}
330
1C6
100
AcDbXrecord
280
     1
102
SHADEPLOT
 70
     0
102
SHADEPLOTRESLEVEL
 70
     2
102
SHADEPLOTCUSTOMDPI
 70
   300
  0
XRECORD
  5
1C9
102
{ACAD_REACTORS
330
1C8
102
}
330
1C8
100
AcDbXrecord
280
     1
102
SHADEPLOT
 70
     0
102
SHADEPLOTRESLEVEL
 70
     2
102
SHADEPLOTCUSTOMDPI
 70
   300
  0
XRECORD
  5
1C5
102
{ACAD_REACTORS
330
1C4
102
}
330
1C4
100
AcDbXrecord
280
     1
102
SHADEPLOT
 70
     0
102
SHADEPLOTRESLEVEL
 70
     2
102
SHADEPLOTCUSTOMDPI
 70
   300
  0
ENDSEC
  0
EOF
